DjangoBooks.com

Welcome to our Community!

It looks like you're new here. If you want to get involved, click one of these buttons!

Today's Birthdays

Bill Da Costa Williams cole7112 HobbittBass Hardaker Luboš

Related Discussions

Who's Online (0)

Key licks to play in the Tchavolo Style

Hello everyone !
This is my first post on this forum and I am glad to be there.
So here is some licks extensively used by Tchavolo.

Am lick

-7-5-----------------------
-----8-5-----------7-3-4-5-
---------5-----------------
-----------7-6-5-4---------
---------------------------
---------------------------

Am lick

-------------------
-----------------5-
-------------5-7---
-9(p)7-6-7-9-------
-------------------
-------------------

G lick

-------------------------------------3-
-------------------------------3-2-3---
-------------------------4-3-4---------
-------------------5-4-5---------------
-------2-1-2-5-4-5---------------------
-3-2-3---------------------------------

D7 lick

-----------------------
-----------------------
-7(p)8(o)7-6-7-8-7-6-7-
-----------------------
-----------------------
-----------------------

Have fun practicing !



8)
«1

Comments

  • djangologydjangology Portland, OregonModerator Dell Arte Hommage
    there is a PDF of Tchavalo licks available on Hotclub.Co.Uk :

    http://hotclub.co.uk/ptab/tchavolo_lick ... _voila.pdf
    ---
    "I want to party like its 1939!"
  • Even better ! Thanks Djangology !
  • GM licks

    -3-0---------------------
    -----3-0-----------------
    ---------2-0-------------
    -------------2-0---------
    -----------------2-0-----
    ---------------------2-3-



    -14-15-14-15---------------------14-14-15-
    ------------------------------------------
    -------------11-12---------11-12----------
    ------------------------------------------
    -------------------9-10-10----------------
    ------------------------------------------
  • Intro in G

    ----------3---3--------3---3---------------------------------
    ----------3---3--------2---2---------1-------1-----3-------3-
    ----------0---0--------0---0---------0-------0-----2-------5-
    -------------------------------------2-------2-----0-------4-
    -5-4-3-2--------2----1-------1---0---------------------------
    -----------------------------------------3-------2-----4-----

    ---------2-5-------12--5-5-
    -------3------(7)--11--5---
    -----3--------(7)--11--4---
    ---4----------(7)--10--5---
    -5------------(7)------5---
    -----------------------3---
  • Cool licks on Minor Swing

    Am
    -----8-5----------------------------------
    ---------8-5----------------6-5-----------
    -6-7---------5------------------7-5-4-----
    ---------------7-6-5-4--6-7-----------6-7-
    ------------------------------------------
    ------------------------------------------

    Dm
    -------------------------
    -5-4-5-6-8-6-5-8-4-5-----
    ------------------------4-5-
    -------------------------
    -------------------------
    -------------------------
  • Lick A7

    --------------------6-5-
    ------------------5-----
    ---------------6--------
    -----------5-8----------
    -------4-7--------------
    -3-5-6------------------
  • A7 lick
    --------------------
    -5-7-5----------7---
    -------6------------
    ---------7-5-4----4-
    --------------------
    --------------------


    Cm lick

    -11-7-10-8------------------------------
    ------------11-7-10-8---------------8-8-
    -----------------------8----------------
    -------------------------10-8-7-10------
    ----------------------------------------
    ----------------------------------------
  • Lick C or Am or D7

    -4-8-5-7-5---------------
    --------------6-4-5-------
    ----------------------4-5-
    ---------------------------
    ---------------------------
    ---------------------------
  • PhilPhil Portland, ORModerator Gallato 452 & Anastasio
    please can you also post audio or video of the licks? Cheers, Phil
  • I know I should but I do not have any mic to record. I will try to make a midi file or GP file.
    A ta sante Phil !
Sign In or Register to comment.
Home  |  Forum  |  Blog  |  Contact  |  206-528-9873
Follow Us
The Premier Gypsy Jazz Marketplace
DjangoBooks.com
Search
Banner Adverts
Sell Your Guitar
Follow Us
© 2019 DjangoBooks.com, all rights reserved worldwide.
Software: Kryptronic eCommerce, Copyright 1999-2019 Kryptronic, Inc. Exec Time: 0.041848 Seconds Memory Usage: 3.228004 Megabytes
Kryptronic