DjangoBooks.com

Welcome to our Community!

It looks like you're new here. If you want to get involved, click one of these buttons!

Related Discussions

Who's Online (0)

Key licks to play in the Tchavolo Style

edited May 2009 in Licks and Patterns Posts: 101
Hello everyone !
This is my first post on this forum and I am glad to be there.
So here is some licks extensively used by Tchavolo.

Am lick

-7-5-----------------------
-----8-5-----------7-3-4-5-
---------5-----------------
-----------7-6-5-4---------
---------------------------
---------------------------

Am lick

-------------------
-----------------5-
-------------5-7---
-9(p)7-6-7-9-------
-------------------
-------------------

G lick

-------------------------------------3-
-------------------------------3-2-3---
-------------------------4-3-4---------
-------------------5-4-5---------------
-------2-1-2-5-4-5---------------------
-3-2-3---------------------------------

D7 lick

-----------------------
-----------------------
-7(p)8(o)7-6-7-8-7-6-7-
-----------------------
-----------------------
-----------------------

Have fun practicing !



8)
«1

Comments

Sign In or Register to comment.
Home  |  Forum  |  Blog  |  Contact  |  206-528-9873
The Premier Gypsy Jazz Marketplace
DjangoBooks.com
USD CAD GBP EUR AUD
USD CAD GBP EUR AUD
Banner Adverts
Sell Your Guitar
© 2021 DjangoBooks.com, all rights reserved worldwide.
Software: Kryptronic eCommerce, Copyright 1999-2021 Kryptronic, Inc. Exec Time: 0.045421 Seconds Memory Usage: 3.45079 Megabytes
Kryptronic