Logo
Call Us
Categories

DjangoBooks.com

Welcome to our Community!

It looks like you're new here. If you want to get involved, click one of these buttons!

Today's Birthday

Ampsmasher

Related Discussions

Who's Online (2)

  • AndyW 11:27AM
  • DeuxDoigts_Tonnerre 11:27AM

Largene Licks

bbwood_98bbwood_98 Brooklyn, NyProdigy Vladimir music! Les Effes. . Its the best!
edited October 2005 in Licks and Patterns
Hi all,
Heres a section of Big bad birelli licks from me and others (robin- jump in anytime!).

e--16s15s14s13---------------------------------------------------------13h1613-
b---------------------15--12-----------------------------------13--15--------------
g--------------------------------13-----------------------13------------------------
d--------------------------------------14--13--12--15------------------------------
a-------------------------------------------------------------------------------------
e-------------------------------------------------------------------------------------


e-------------------------------------------------------------------------------------
b--15--13---------------------------------------------------------------------------
g------------13----------------------------------------------------------------------
d-----------------15--13h14--12---------------------------------------------------
a------------------------------------15--12-12-------------------------------------
e-------------------------------------------------------------------------------------

A great idea from gypsy project (Ma Primiere guitar) in the first part of the solo.
Cheers,
B.
Sign In or Register to comment.
Kryptronic Internet Software Solutions