Banner Adverts
Closure

DjangoBooks.com

How the @#$%! did Django play this with 2 fingers?

13»

Comments

  • ElliotElliot Madison, WisconsinNew
    Posts: 551
    There it is! The 'White Room' lick!
  • BonesBones Moderator
    Posts: 2,768
    Hi Adrian,

    Wow, nice work. I'd like to give it a test drive.
  • Lango-DjangoLango-Django Niagara-On-The-Lake, ONModerator
    Posts: 1,383
    Ok, I finally figured that fast-triplets-in-the-high-register "Rose Room" lick out, the one that prompted this whole thread... unbelievably enough, I can play it at 100% speed and keep right up with Django---!!!

    It [i]is[/i] sweep picking like I had originally thought... and for some odd reason it only works for me if I start with an [b]upstroke[/b] on that very first note...

    (I doubt that that's what Django did, but it works for me!)

    G9:

    ---17--13-----------------13---------17-----13------------------------13--------
    ------------15---------15----------------------------15-----------15--------------
    -----------------16-----------------------------------------16---------------------
    -------------------------------------------------------------------------------------
    --------------------------------------------------------------------------------------
    --------------------------------------------------------------------------------------

    C13:

    ----17---12------------------------12---------17---------
    -----------------15-----------15---------------------------
    ------------------------15-----------------------------------
    ------------------------------------------------------------
    -------------------------------------------------------------
    -------------------------------------------------------------

    You have to really stretch your middle finger out to get those Bb and D notes at fret 15 on the C13 chord, but it kinda makes you feel Django-ish all over when you hit it just right.

    I truly believe that Django did use his third finger to play those high A notes, because you don't have to really move it, just keep it hovered above the 17th fret, ready to slam down when needed...

    Hope this fingering works for you like it did for me!

    Will
    Niagara-On-The-Lake, ON
    I live in a little tourist town called Niagara-On-The-Lake, Ontario, Canada, which is about twenty miles north of Niagara Falls.

    If you are ever planning on visiting the beautiful Niagara area, feel free to PM me and perhaps we can get together and do some jamming.
Sign In or Register to comment.
Home  |  Forum  |  Blog  |  Contact  |  206-528-9873
The Premier Gypsy Jazz Marketplace
DjangoBooks.com
USD CAD GBP EUR AUD
USD CAD GBP EUR AUD
© 2020 DjangoBooks.com, all rights reserved worldwide.
Software: Kryptronic eCommerce, Copyright 1999-2020 Kryptronic, Inc. Exec Time: 0.042107 Seconds Memory Usage: 3.444717 Megabytes
Kryptronic