DjangoBooks.com

Welcome to our Community!

It looks like you're new here. If you want to get involved, click one of these buttons!

Related Discussions

Who's Online (0)

Today's Birthdays

countrygypsy S@nderV MaxGuitar

minor swing outro

tommasotommaso ROMA-ITALYNew
edited October 2006 in Licks and Patterns Posts: 149
One of the very used outros is the following (here in Am) :


e|------------------------------------------------------------------------|
B|------5--4--5--6--7--8--9--10--------------------------------------|
G|------------------------------------------------------------------------|
D|------------------------------------------------------------------------|
A|------------------------------------------------------------------------|
E|------------------------------------------------------------------------|

I’ve noticed that sometimes it is executed with chords rather than with single notes.
Wich chords and fingerings should be used ?
Thanks for the help.
Tommaso

P.S. I would like to underline that, or those who don't have the possibility of a teacher (nfortunately it's difficult to find good GJ teachers here), this forum is a great resource.
Thanks again Michael, Dennis,Jack and all the other moderators and membres.
Grazie Django!

Comments

  • JackJack western Massachusetts✭✭✭✭
    Posts: 1,911
    I'll sometimes do this:

    --x--x--x------------
    --5--4--5------------
    --4--3--4------------
    --5--4--5------------
    --4--3--4------------
    --x--x--x--etc...----

    Fingering:

    -------------------
    ---4---------------
    ---2---------------
    ---3---------------
    ---1---------------
    -------------------

    Hope that helps,
    Jack.
  • schimmelschimmel New
    Posts: 4
    e|------------------------------------------------------------------------|
    b|------5--4--5--6--7--8--9--10---------------------------------------|
    g|------------------------------------------------------------------------|
    d|------2--1--2--3--4--7--8--9-----------------------------------------|
    a|------------------------------------------------------------------------|
    e|------------------------------------------------------------------------|

    People also use this frequently, just plain octaves.
Sign In or Register to comment.
Home  |  Forum  |  Blog  |  Contact  |  206-528-9873
Follow Us
The Premier Gypsy Jazz Marketplace
DjangoBooks.com
Search
Banner Adverts
Sell Your Guitar
Follow Us
© 2019 DjangoBooks.com, all rights reserved worldwide.
Software: Kryptronic eCommerce, Copyright 1999-2019 Kryptronic, Inc. Exec Time: 0.042154 Seconds Memory Usage: 3.446114 Megabytes
Kryptronic